ISO-10303-21;
HEADER;
/* Generated by software containing ST-Developer
 * from STEP Tools, Inc. (www.steptools.com) 
 */
/* OPTION: using custom schema-name function */

FILE_DESCRIPTION(
/* description */ (''),
/* implementation_level */ '2;1');

FILE_NAME(
/* name */ 'TC10-2-EA.stp',
/* time_stamp */ '2019-06-26T10:06:25+08:00',
/* author */ (''),
/* organization */ (''),
/* preprocessor_version */ 'ST-DEVELOPER v16',
/* originating_system */ 'SIEMENS PLM Software NX 10.0',
/* authorisation */ '');

FILE_SCHEMA (('CONFIG_CONTROL_DESIGN'));
ENDSEC;

DATA;
#10=SHAPE_REPRESENTATION_RELATIONSHIP('None',
'relationship between SP6104T1900-None and SP6104T1900-None',#92,#11);
#11=ADVANCED_BREP_SHAPE_REPRESENTATION('SP6104T1900-None',(#93),#694);
#12=CC_DESIGN_APPROVAL(#24,(#82));
#13=CC_DESIGN_APPROVAL(#25,(#84));
#14=CC_DESIGN_APPROVAL(#26,(#31));
#15=APPROVAL_PERSON_ORGANIZATION(#69,#24,#18);
#16=APPROVAL_PERSON_ORGANIZATION(#70,#25,#19);
#17=APPROVAL_PERSON_ORGANIZATION(#71,#26,#20);
#18=APPROVAL_ROLE('approver');
#19=APPROVAL_ROLE('approver');
#20=APPROVAL_ROLE('approver');
#21=APPROVAL_DATE_TIME(#39,#24);
#22=APPROVAL_DATE_TIME(#40,#25);
#23=APPROVAL_DATE_TIME(#41,#26);
#24=APPROVAL(#27,' ');
#25=APPROVAL(#28,' ');
#26=APPROVAL(#29,' ');
#27=APPROVAL_STATUS('not_yet_approved');
#28=APPROVAL_STATUS('not_yet_approved');
#29=APPROVAL_STATUS('not_yet_approved');
#30=CC_DESIGN_SECURITY_CLASSIFICATION(#31,(#84));
#31=SECURITY_CLASSIFICATION(' ',' ',#32);
#32=SECURITY_CLASSIFICATION_LEVEL('confidential');
#33=CC_DESIGN_DATE_AND_TIME_ASSIGNMENT(#37,#35,(#82));
#34=CC_DESIGN_DATE_AND_TIME_ASSIGNMENT(#38,#36,(#31));
#35=DATE_TIME_ROLE('creation_date');
#36=DATE_TIME_ROLE('classification_date');
#37=DATE_AND_TIME(#52,#42);
#38=DATE_AND_TIME(#53,#43);
#39=DATE_AND_TIME(#54,#44);
#40=DATE_AND_TIME(#55,#45);
#41=DATE_AND_TIME(#56,#46);
#42=LOCAL_TIME(0,0,0.,#47);
#43=LOCAL_TIME(0,0,0.,#48);
#44=LOCAL_TIME(0,0,0.,#49);
#45=LOCAL_TIME(0,0,0.,#50);
#46=LOCAL_TIME(0,0,0.,#51);
#47=COORDINATED_UNIVERSAL_TIME_OFFSET(0,0,.BEHIND.);
#48=COORDINATED_UNIVERSAL_TIME_OFFSET(0,0,.BEHIND.);
#49=COORDINATED_UNIVERSAL_TIME_OFFSET(0,0,.BEHIND.);
#50=COORDINATED_UNIVERSAL_TIME_OFFSET(0,0,.BEHIND.);
#51=COORDINATED_UNIVERSAL_TIME_OFFSET(0,0,.BEHIND.);
#52=CALENDAR_DATE(0,1,1);
#53=CALENDAR_DATE(0,1,1);
#54=CALENDAR_DATE(0,1,1);
#55=CALENDAR_DATE(0,1,1);
#56=CALENDAR_DATE(0,1,1);
#57=CC_DESIGN_PERSON_AND_ORGANIZATION_ASSIGNMENT(#65,#61,(#82,#84));
#58=CC_DESIGN_PERSON_AND_ORGANIZATION_ASSIGNMENT(#66,#62,(#86));
#59=CC_DESIGN_PERSON_AND_ORGANIZATION_ASSIGNMENT(#67,#63,(#84));
#60=CC_DESIGN_PERSON_AND_ORGANIZATION_ASSIGNMENT(#68,#64,(#31));
#61=PERSON_AND_ORGANIZATION_ROLE('creator');
#62=PERSON_AND_ORGANIZATION_ROLE('design_owner');
#63=PERSON_AND_ORGANIZATION_ROLE('design_supplier');
#64=PERSON_AND_ORGANIZATION_ROLE('classification_officer');
#65=PERSON_AND_ORGANIZATION(#79,#72);
#66=PERSON_AND_ORGANIZATION(#79,#73);
#67=PERSON_AND_ORGANIZATION(#79,#74);
#68=PERSON_AND_ORGANIZATION(#79,#75);
#69=PERSON_AND_ORGANIZATION(#79,#76);
#70=PERSON_AND_ORGANIZATION(#79,#77);
#71=PERSON_AND_ORGANIZATION(#79,#78);
#72=ORGANIZATION(' ',' ',' ');
#73=ORGANIZATION(' ',' ',' ');
#74=ORGANIZATION(' ',' ',' ');
#75=ORGANIZATION(' ',' ',' ');
#76=ORGANIZATION(' ',' ',' ');
#77=ORGANIZATION(' ',' ',' ');
#78=ORGANIZATION(' ',' ',' ');
#79=PERSON(' ',' ',' ',(' '),$,$);
#80=SHAPE_DEFINITION_REPRESENTATION(#81,#92);
#81=PRODUCT_DEFINITION_SHAPE('','',#82);
#82=PRODUCT_DEFINITION(' ','',#84,#83);
#83=DESIGN_CONTEXT('',#91,'design');
#84=PRODUCT_DEFINITION_FORMATION_WITH_SPECIFIED_SOURCE(' ',' ',#86,
 .NOT_KNOWN.);
#85=PRODUCT_RELATED_PRODUCT_CATEGORY('detail','',(#86));
#86=PRODUCT('SP6104T1900','SP6104T1900',' ',(#89));
#87=PRODUCT_CATEGORY('part',' ');
#88=PRODUCT_CATEGORY(' ','');
#89=MECHANICAL_CONTEXT(' ',#91,'mechanical');
#90=APPLICATION_PROTOCOL_DEFINITION('international standard',
'config_control_design',2010,#91);
#91=APPLICATION_CONTEXT(
'configuration controlled 3D designs of mechanical parts and assemblie
s');
#92=SHAPE_REPRESENTATION('SP6104T1900-None',(#442),#694);
#93=MANIFOLD_SOLID_BREP('',#94);
#94=CLOSED_SHELL('',(#104,#105,#106,#107,#108,#109,#110,#111,#112,#113,
#114,#115,#116,#117,#118,#119,#120,#121,#122));
#95=CYLINDRICAL_SURFACE('',#457,18.);
#96=CYLINDRICAL_SURFACE('',#460,0.5);
#97=CYLINDRICAL_SURFACE('',#463,0.499999999999999);
#98=CYLINDRICAL_SURFACE('',#466,0.5);
#99=CYLINDRICAL_SURFACE('',#469,0.499999999999999);
#100=CYLINDRICAL_SURFACE('',#472,13.5);
#101=CYLINDRICAL_SURFACE('',#474,1.00000000000001);
#102=CYLINDRICAL_SURFACE('',#476,2.);
#103=CYLINDRICAL_SURFACE('',#478,2.);
#104=ADVANCED_FACE('',(#133),#123,.F.);
#105=ADVANCED_FACE('',(#134),#124,.F.);
#106=ADVANCED_FACE('',(#135),#125,.F.);
#107=ADVANCED_FACE('',(#136),#126,.F.);
#108=ADVANCED_FACE('',(#137),#95,.F.);
#109=ADVANCED_FACE('',(#138),#127,.F.);
#110=ADVANCED_FACE('',(#139),#96,.T.);
#111=ADVANCED_FACE('',(#140),#128,.F.);
#112=ADVANCED_FACE('',(#141),#97,.T.);
#113=ADVANCED_FACE('',(#142),#129,.F.);
#114=ADVANCED_FACE('',(#143),#98,.T.);
#115=ADVANCED_FACE('',(#144),#130,.F.);
#116=ADVANCED_FACE('',(#145),#99,.T.);
#117=ADVANCED_FACE('',(#146),#131,.F.);
#118=ADVANCED_FACE('',(#147),#100,.F.);
#119=ADVANCED_FACE('',(#148),#101,.T.);
#120=ADVANCED_FACE('',(#149),#102,.T.);
#121=ADVANCED_FACE('',(#150),#103,.T.);
#122=ADVANCED_FACE('',(#151),#132,.T.);
#123=PLANE('',#452);
#124=PLANE('',#453);
#125=PLANE('',#454);
#126=PLANE('',#455);
#127=PLANE('',#458);
#128=PLANE('',#461);
#129=PLANE('',#464);
#130=PLANE('',#467);
#131=PLANE('',#470);
#132=PLANE('',#479);
#133=FACE_OUTER_BOUND('',#152,.T.);
#134=FACE_OUTER_BOUND('',#153,.T.);
#135=FACE_OUTER_BOUND('',#154,.T.);
#136=FACE_OUTER_BOUND('',#155,.T.);
#137=FACE_OUTER_BOUND('',#156,.T.);
#138=FACE_OUTER_BOUND('',#157,.T.);
#139=FACE_OUTER_BOUND('',#158,.T.);
#140=FACE_OUTER_BOUND('',#159,.T.);
#141=FACE_OUTER_BOUND('',#160,.T.);
#142=FACE_OUTER_BOUND('',#161,.T.);
#143=FACE_OUTER_BOUND('',#162,.T.);
#144=FACE_OUTER_BOUND('',#163,.T.);
#145=FACE_OUTER_BOUND('',#164,.T.);
#146=FACE_OUTER_BOUND('',#165,.T.);
#147=FACE_OUTER_BOUND('',#166,.T.);
#148=FACE_OUTER_BOUND('',#167,.T.);
#149=FACE_OUTER_BOUND('',#168,.T.);
#150=FACE_OUTER_BOUND('',#169,.T.);
#151=FACE_OUTER_BOUND('',#170,.T.);
#152=EDGE_LOOP('',(#237,#238,#239,#240,#241,#242,#243,#244,#245,#246,#247,
#248,#249,#250,#251,#252,#253));
#153=EDGE_LOOP('',(#254,#255,#256,#257));
#154=EDGE_LOOP('',(#258,#259,#260,#261));
#155=EDGE_LOOP('',(#262,#263,#264,#265));
#156=EDGE_LOOP('',(#266,#267,#268,#269));
#157=EDGE_LOOP('',(#270,#271,#272,#273));
#158=EDGE_LOOP('',(#274,#275,#276,#277));
#159=EDGE_LOOP('',(#278,#279,#280,#281));
#160=EDGE_LOOP('',(#282,#283,#284,#285));
#161=EDGE_LOOP('',(#286,#287,#288,#289));
#162=EDGE_LOOP('',(#290,#291,#292,#293));
#163=EDGE_LOOP('',(#294,#295,#296,#297));
#164=EDGE_LOOP('',(#298,#299,#300,#301));
#165=EDGE_LOOP('',(#302,#303,#304,#305));
#166=EDGE_LOOP('',(#306,#307,#308,#309));
#167=EDGE_LOOP('',(#310,#311,#312,#313));
#168=EDGE_LOOP('',(#314,#315,#316,#317));
#169=EDGE_LOOP('',(#318,#319,#320,#321));
#170=EDGE_LOOP('',(#322,#323,#324,#325,#326,#327,#328,#329,#330,#331,#332,
#333,#334,#335,#336,#337,#338));
#171=LINE('',#593,#204);
#172=LINE('',#597,#205);
#173=LINE('',#601,#206);
#174=LINE('',#605,#207);
#175=LINE('',#609,#208);
#176=LINE('',#613,#209);
#177=LINE('',#619,#210);
#178=LINE('',#623,#211);
#179=LINE('',#625,#212);
#180=LINE('',#627,#213);
#181=LINE('',#629,#214);
#182=LINE('',#631,#215);
#183=LINE('',#633,#216);
#184=LINE('',#635,#217);
#185=LINE('',#637,#218);
#186=LINE('',#640,#219);
#187=LINE('',#641,#220);
#188=LINE('',#643,#221);
#189=LINE('',#647,#222);
#190=LINE('',#649,#223);
#191=LINE('',#651,#224);
#192=LINE('',#655,#225);
#193=LINE('',#657,#226);
#194=LINE('',#659,#227);
#195=LINE('',#663,#228);
#196=LINE('',#665,#229);
#197=LINE('',#667,#230);
#198=LINE('',#671,#231);
#199=LINE('',#673,#232);
#200=LINE('',#675,#233);
#201=LINE('',#679,#234);
#202=LINE('',#681,#235);
#203=LINE('',#683,#236);
#204=VECTOR('',#484,1.);
#205=VECTOR('',#487,1.);
#206=VECTOR('',#490,1.);
#207=VECTOR('',#493,1.);
#208=VECTOR('',#496,1.);
#209=VECTOR('',#499,1.);
#210=VECTOR('',#504,1.);
#211=VECTOR('',#507,1.);
#212=VECTOR('',#510,1.);
#213=VECTOR('',#511,1.);
#214=VECTOR('',#512,1.);
#215=VECTOR('',#515,1.);
#216=VECTOR('',#516,1.);
#217=VECTOR('',#517,1.);
#218=VECTOR('',#520,1.);
#219=VECTOR('',#521,1.);
#220=VECTOR('',#522,1.);
#221=VECTOR('',#525,1.);
#222=VECTOR('',#530,1.);
#223=VECTOR('',#531,1.);
#224=VECTOR('',#534,1.);
#225=VECTOR('',#539,1.);
#226=VECTOR('',#540,1.);
#227=VECTOR('',#543,1.);
#228=VECTOR('',#548,1.);
#229=VECTOR('',#549,1.);
#230=VECTOR('',#552,1.);
#231=VECTOR('',#557,1.);
#232=VECTOR('',#558,1.);
#233=VECTOR('',#561,1.);
#234=VECTOR('',#566,1.);
#235=VECTOR('',#567,1.);
#236=VECTOR('',#570,1.);
#237=ORIENTED_EDGE('',*,*,#373,.F.);
#238=ORIENTED_EDGE('',*,*,#374,.F.);
#239=ORIENTED_EDGE('',*,*,#375,.F.);
#240=ORIENTED_EDGE('',*,*,#376,.F.);
#241=ORIENTED_EDGE('',*,*,#377,.F.);
#242=ORIENTED_EDGE('',*,*,#378,.F.);
#243=ORIENTED_EDGE('',*,*,#379,.F.);
#244=ORIENTED_EDGE('',*,*,#380,.F.);
#245=ORIENTED_EDGE('',*,*,#381,.T.);
#246=ORIENTED_EDGE('',*,*,#382,.F.);
#247=ORIENTED_EDGE('',*,*,#383,.T.);
#248=ORIENTED_EDGE('',*,*,#384,.F.);
#249=ORIENTED_EDGE('',*,*,#385,.F.);
#250=ORIENTED_EDGE('',*,*,#386,.F.);
#251=ORIENTED_EDGE('',*,*,#387,.F.);
#252=ORIENTED_EDGE('',*,*,#388,.F.);
#253=ORIENTED_EDGE('',*,*,#389,.F.);
#254=ORIENTED_EDGE('',*,*,#384,.T.);
#255=ORIENTED_EDGE('',*,*,#390,.T.);
#256=ORIENTED_EDGE('',*,*,#391,.F.);
#257=ORIENTED_EDGE('',*,*,#392,.T.);
#258=ORIENTED_EDGE('',*,*,#382,.T.);
#259=ORIENTED_EDGE('',*,*,#393,.T.);
#260=ORIENTED_EDGE('',*,*,#394,.F.);
#261=ORIENTED_EDGE('',*,*,#395,.T.);
#262=ORIENTED_EDGE('',*,*,#396,.F.);
#263=ORIENTED_EDGE('',*,*,#397,.T.);
#264=ORIENTED_EDGE('',*,*,#380,.T.);
#265=ORIENTED_EDGE('',*,*,#398,.F.);
#266=ORIENTED_EDGE('',*,*,#379,.T.);
#267=ORIENTED_EDGE('',*,*,#399,.F.);
#268=ORIENTED_EDGE('',*,*,#400,.F.);
#269=ORIENTED_EDGE('',*,*,#398,.T.);
#270=ORIENTED_EDGE('',*,*,#378,.T.);
#271=ORIENTED_EDGE('',*,*,#401,.F.);
#272=ORIENTED_EDGE('',*,*,#402,.F.);
#273=ORIENTED_EDGE('',*,*,#399,.T.);
#274=ORIENTED_EDGE('',*,*,#377,.T.);
#275=ORIENTED_EDGE('',*,*,#403,.F.);
#276=ORIENTED_EDGE('',*,*,#404,.F.);
#277=ORIENTED_EDGE('',*,*,#401,.T.);
#278=ORIENTED_EDGE('',*,*,#376,.T.);
#279=ORIENTED_EDGE('',*,*,#405,.F.);
#280=ORIENTED_EDGE('',*,*,#406,.F.);
#281=ORIENTED_EDGE('',*,*,#403,.T.);
#282=ORIENTED_EDGE('',*,*,#375,.T.);
#283=ORIENTED_EDGE('',*,*,#407,.F.);
#284=ORIENTED_EDGE('',*,*,#408,.F.);
#285=ORIENTED_EDGE('',*,*,#405,.T.);
#286=ORIENTED_EDGE('',*,*,#374,.T.);
#287=ORIENTED_EDGE('',*,*,#409,.F.);
#288=ORIENTED_EDGE('',*,*,#410,.F.);
#289=ORIENTED_EDGE('',*,*,#407,.T.);
#290=ORIENTED_EDGE('',*,*,#373,.T.);
#291=ORIENTED_EDGE('',*,*,#411,.F.);
#292=ORIENTED_EDGE('',*,*,#412,.F.);
#293=ORIENTED_EDGE('',*,*,#409,.T.);
#294=ORIENTED_EDGE('',*,*,#389,.T.);
#295=ORIENTED_EDGE('',*,*,#413,.F.);
#296=ORIENTED_EDGE('',*,*,#414,.F.);
#297=ORIENTED_EDGE('',*,*,#411,.T.);
#298=ORIENTED_EDGE('',*,*,#388,.T.);
#299=ORIENTED_EDGE('',*,*,#415,.F.);
#300=ORIENTED_EDGE('',*,*,#416,.F.);
#301=ORIENTED_EDGE('',*,*,#413,.T.);
#302=ORIENTED_EDGE('',*,*,#387,.T.);
#303=ORIENTED_EDGE('',*,*,#417,.F.);
#304=ORIENTED_EDGE('',*,*,#418,.F.);
#305=ORIENTED_EDGE('',*,*,#415,.T.);
#306=ORIENTED_EDGE('',*,*,#386,.T.);
#307=ORIENTED_EDGE('',*,*,#419,.F.);
#308=ORIENTED_EDGE('',*,*,#420,.F.);
#309=ORIENTED_EDGE('',*,*,#417,.T.);
#310=ORIENTED_EDGE('',*,*,#385,.T.);
#311=ORIENTED_EDGE('',*,*,#392,.F.);
#312=ORIENTED_EDGE('',*,*,#421,.F.);
#313=ORIENTED_EDGE('',*,*,#419,.T.);
#314=ORIENTED_EDGE('',*,*,#422,.F.);
#315=ORIENTED_EDGE('',*,*,#393,.F.);
#316=ORIENTED_EDGE('',*,*,#381,.F.);
#317=ORIENTED_EDGE('',*,*,#397,.F.);
#318=ORIENTED_EDGE('',*,*,#423,.F.);
#319=ORIENTED_EDGE('',*,*,#390,.F.);
#320=ORIENTED_EDGE('',*,*,#383,.F.);
#321=ORIENTED_EDGE('',*,*,#395,.F.);
#322=ORIENTED_EDGE('',*,*,#410,.T.);
#323=ORIENTED_EDGE('',*,*,#412,.T.);
#324=ORIENTED_EDGE('',*,*,#414,.T.);
#325=ORIENTED_EDGE('',*,*,#416,.T.);
#326=ORIENTED_EDGE('',*,*,#418,.T.);
#327=ORIENTED_EDGE('',*,*,#420,.T.);
#328=ORIENTED_EDGE('',*,*,#421,.T.);
#329=ORIENTED_EDGE('',*,*,#391,.T.);
#330=ORIENTED_EDGE('',*,*,#423,.T.);
#331=ORIENTED_EDGE('',*,*,#394,.T.);
#332=ORIENTED_EDGE('',*,*,#422,.T.);
#333=ORIENTED_EDGE('',*,*,#396,.T.);
#334=ORIENTED_EDGE('',*,*,#400,.T.);
#335=ORIENTED_EDGE('',*,*,#402,.T.);
#336=ORIENTED_EDGE('',*,*,#404,.T.);
#337=ORIENTED_EDGE('',*,*,#406,.T.);
#338=ORIENTED_EDGE('',*,*,#408,.T.);
#339=VERTEX_POINT('',#591);
#340=VERTEX_POINT('',#592);
#341=VERTEX_POINT('',#594);
#342=VERTEX_POINT('',#596);
#343=VERTEX_POINT('',#598);
#344=VERTEX_POINT('',#600);
#345=VERTEX_POINT('',#602);
#346=VERTEX_POINT('',#604);
#347=VERTEX_POINT('',#606);
#348=VERTEX_POINT('',#608);
#349=VERTEX_POINT('',#610);
#350=VERTEX_POINT('',#612);
#351=VERTEX_POINT('',#614);
#352=VERTEX_POINT('',#616);
#353=VERTEX_POINT('',#618);
#354=VERTEX_POINT('',#620);
#355=VERTEX_POINT('',#622);
#356=VERTEX_POINT('',#626);
#357=VERTEX_POINT('',#628);
#358=VERTEX_POINT('',#632);
#359=VERTEX_POINT('',#634);
#360=VERTEX_POINT('',#638);
#361=VERTEX_POINT('',#639);
#362=VERTEX_POINT('',#644);
#363=VERTEX_POINT('',#648);
#364=VERTEX_POINT('',#652);
#365=VERTEX_POINT('',#656);
#366=VERTEX_POINT('',#660);
#367=VERTEX_POINT('',#664);
#368=VERTEX_POINT('',#668);
#369=VERTEX_POINT('',#672);
#370=VERTEX_POINT('',#676);
#371=VERTEX_POINT('',#680);
#372=VERTEX_POINT('',#684);
#373=EDGE_CURVE('',#339,#340,#424,.T.);
#374=EDGE_CURVE('',#341,#339,#171,.T.);
#375=EDGE_CURVE('',#342,#341,#425,.T.);
#376=EDGE_CURVE('',#343,#342,#172,.T.);
#377=EDGE_CURVE('',#344,#343,#426,.T.);
#378=EDGE_CURVE('',#345,#344,#173,.T.);
#379=EDGE_CURVE('',#346,#345,#427,.T.);
#380=EDGE_CURVE('',#347,#346,#174,.T.);
#381=EDGE_CURVE('',#347,#348,#428,.T.);
#382=EDGE_CURVE('',#349,#348,#175,.T.);
#383=EDGE_CURVE('',#349,#350,#429,.T.);
#384=EDGE_CURVE('',#351,#350,#176,.T.);
#385=EDGE_CURVE('',#352,#351,#430,.T.);
#386=EDGE_CURVE('',#353,#352,#431,.T.);
#387=EDGE_CURVE('',#354,#353,#177,.T.);
#388=EDGE_CURVE('',#355,#354,#432,.T.);
#389=EDGE_CURVE('',#340,#355,#178,.T.);
#390=EDGE_CURVE('',#350,#356,#179,.T.);
#391=EDGE_CURVE('',#357,#356,#180,.T.);
#392=EDGE_CURVE('',#357,#351,#181,.T.);
#393=EDGE_CURVE('',#348,#358,#182,.T.);
#394=EDGE_CURVE('',#359,#358,#183,.T.);
#395=EDGE_CURVE('',#359,#349,#184,.T.);
#396=EDGE_CURVE('',#360,#361,#185,.T.);
#397=EDGE_CURVE('',#360,#347,#186,.T.);
#398=EDGE_CURVE('',#361,#346,#187,.T.);
#399=EDGE_CURVE('',#362,#345,#188,.T.);
#400=EDGE_CURVE('',#361,#362,#433,.T.);
#401=EDGE_CURVE('',#363,#344,#189,.T.);
#402=EDGE_CURVE('',#362,#363,#190,.T.);
#403=EDGE_CURVE('',#364,#343,#191,.T.);
#404=EDGE_CURVE('',#363,#364,#434,.T.);
#405=EDGE_CURVE('',#365,#342,#192,.T.);
#406=EDGE_CURVE('',#364,#365,#193,.T.);
#407=EDGE_CURVE('',#366,#341,#194,.T.);
#408=EDGE_CURVE('',#365,#366,#435,.T.);
#409=EDGE_CURVE('',#367,#339,#195,.T.);
#410=EDGE_CURVE('',#366,#367,#196,.T.);
#411=EDGE_CURVE('',#368,#340,#197,.T.);
#412=EDGE_CURVE('',#367,#368,#436,.T.);
#413=EDGE_CURVE('',#369,#355,#198,.T.);
#414=EDGE_CURVE('',#368,#369,#199,.T.);
#415=EDGE_CURVE('',#370,#354,#200,.T.);
#416=EDGE_CURVE('',#369,#370,#437,.T.);
#417=EDGE_CURVE('',#371,#353,#201,.T.);
#418=EDGE_CURVE('',#370,#371,#202,.T.);
#419=EDGE_CURVE('',#372,#352,#203,.T.);
#420=EDGE_CURVE('',#371,#372,#438,.T.);
#421=EDGE_CURVE('',#372,#357,#439,.T.);
#422=EDGE_CURVE('',#358,#360,#440,.T.);
#423=EDGE_CURVE('',#356,#359,#441,.T.);
#424=CIRCLE('',#443,0.5);
#425=CIRCLE('',#444,0.499999999999999);
#426=CIRCLE('',#445,0.5);
#427=CIRCLE('',#446,18.);
#428=CIRCLE('',#447,2.);
#429=CIRCLE('',#448,2.);
#430=CIRCLE('',#449,1.00000000000001);
#431=CIRCLE('',#450,13.5);
#432=CIRCLE('',#451,0.499999999999999);
#433=CIRCLE('',#456,18.);
#434=CIRCLE('',#459,0.5);
#435=CIRCLE('',#462,0.499999999999999);
#436=CIRCLE('',#465,0.5);
#437=CIRCLE('',#468,0.499999999999999);
#438=CIRCLE('',#471,13.5);
#439=CIRCLE('',#473,1.00000000000001);
#440=CIRCLE('',#475,2.);
#441=CIRCLE('',#477,2.);
#442=AXIS2_PLACEMENT_3D('',#589,#480,#481);
#443=AXIS2_PLACEMENT_3D('',#590,#482,#483);
#444=AXIS2_PLACEMENT_3D('',#595,#485,#486);
#445=AXIS2_PLACEMENT_3D('',#599,#488,#489);
#446=AXIS2_PLACEMENT_3D('',#603,#491,#492);
#447=AXIS2_PLACEMENT_3D('',#607,#494,#495);
#448=AXIS2_PLACEMENT_3D('',#611,#497,#498);
#449=AXIS2_PLACEMENT_3D('',#615,#500,#501);
#450=AXIS2_PLACEMENT_3D('',#617,#502,#503);
#451=AXIS2_PLACEMENT_3D('',#621,#505,#506);
#452=AXIS2_PLACEMENT_3D('',#624,#508,#509);
#453=AXIS2_PLACEMENT_3D('',#630,#513,#514);
#454=AXIS2_PLACEMENT_3D('',#636,#518,#519);
#455=AXIS2_PLACEMENT_3D('',#642,#523,#524);
#456=AXIS2_PLACEMENT_3D('',#645,#526,#527);
#457=AXIS2_PLACEMENT_3D('',#646,#528,#529);
#458=AXIS2_PLACEMENT_3D('',#650,#532,#533);
#459=AXIS2_PLACEMENT_3D('',#653,#535,#536);
#460=AXIS2_PLACEMENT_3D('',#654,#537,#538);
#461=AXIS2_PLACEMENT_3D('',#658,#541,#542);
#462=AXIS2_PLACEMENT_3D('',#661,#544,#545);
#463=AXIS2_PLACEMENT_3D('',#662,#546,#547);
#464=AXIS2_PLACEMENT_3D('',#666,#550,#551);
#465=AXIS2_PLACEMENT_3D('',#669,#553,#554);
#466=AXIS2_PLACEMENT_3D('',#670,#555,#556);
#467=AXIS2_PLACEMENT_3D('',#674,#559,#560);
#468=AXIS2_PLACEMENT_3D('',#677,#562,#563);
#469=AXIS2_PLACEMENT_3D('',#678,#564,#565);
#470=AXIS2_PLACEMENT_3D('',#682,#568,#569);
#471=AXIS2_PLACEMENT_3D('',#685,#571,#572);
#472=AXIS2_PLACEMENT_3D('',#686,#573,#574);
#473=AXIS2_PLACEMENT_3D('',#687,#575,#576);
#474=AXIS2_PLACEMENT_3D('',#688,#577,#578);
#475=AXIS2_PLACEMENT_3D('',#689,#579,#580);
#476=AXIS2_PLACEMENT_3D('',#690,#581,#582);
#477=AXIS2_PLACEMENT_3D('',#691,#583,#584);
#478=AXIS2_PLACEMENT_3D('',#692,#585,#586);
#479=AXIS2_PLACEMENT_3D('',#693,#587,#588);
#480=DIRECTION('',(0.,0.,1.));
#481=DIRECTION('',(1.,0.,0.));
#482=DIRECTION('',(0.,-1.,0.));
#483=DIRECTION('',(1.,0.,0.));
#484=DIRECTION('',(-1.,0.,0.));
#485=DIRECTION('',(0.,-1.,0.));
#486=DIRECTION('',(1.,0.,0.));
#487=DIRECTION('',(-0.207911690817759,0.,0.978147600733806));
#488=DIRECTION('',(0.,-1.,0.));
#489=DIRECTION('',(1.,0.,0.));
#490=DIRECTION('',(0.,0.,1.));
#491=DIRECTION('',(0.,1.,0.));
#492=DIRECTION('',(1.,0.,9.63735264431559E-17));
#493=DIRECTION('',(0.,0.,1.));
#494=DIRECTION('',(0.,1.,0.));
#495=DIRECTION('',(0.,0.,-1.));
#496=DIRECTION('',(1.,0.,0.));
#497=DIRECTION('',(0.,1.,0.));
#498=DIRECTION('',(0.,0.,-1.));
#499=DIRECTION('',(0.,0.,-1.));
#500=DIRECTION('',(0.,-1.,0.));
#501=DIRECTION('',(1.,0.,0.));
#502=DIRECTION('',(0.,1.,0.));
#503=DIRECTION('',(1.,0.,0.));
#504=DIRECTION('',(0.,0.,-1.));
#505=DIRECTION('',(0.,-1.,0.));
#506=DIRECTION('',(1.,0.,0.));
#507=DIRECTION('',(-0.20791169081776,0.,-0.978147600733805));
#508=DIRECTION('',(0.,-1.,0.));
#509=DIRECTION('',(0.,0.,-1.));
#510=DIRECTION('',(0.,-1.,0.));
#511=DIRECTION('',(0.,0.,-1.));
#512=DIRECTION('',(0.,1.,0.));
#513=DIRECTION('',(1.,0.,0.));
#514=DIRECTION('',(0.,0.,-1.));
#515=DIRECTION('',(0.,-1.,0.));
#516=DIRECTION('',(1.,0.,0.));
#517=DIRECTION('',(0.,1.,0.));
#518=DIRECTION('',(0.,0.,1.));
#519=DIRECTION('',(1.,0.,0.));
#520=DIRECTION('',(0.,0.,1.));
#521=DIRECTION('',(0.,1.,0.));
#522=DIRECTION('',(0.,1.,0.));
#523=DIRECTION('',(-1.,0.,0.));
#524=DIRECTION('',(0.,0.,1.));
#525=DIRECTION('',(0.,1.,0.));
#526=DIRECTION('',(0.,1.,0.));
#527=DIRECTION('',(1.,0.,9.63735264431559E-17));
#528=DIRECTION('',(0.,1.,0.));
#529=DIRECTION('',(0.,0.,1.));
#530=DIRECTION('',(0.,1.,0.));
#531=DIRECTION('',(0.,0.,1.));
#532=DIRECTION('',(-1.,0.,0.));
#533=DIRECTION('',(0.,0.,1.));
#534=DIRECTION('',(0.,1.,0.));
#535=DIRECTION('',(0.,-1.,0.));
#536=DIRECTION('',(1.,0.,0.));
#537=DIRECTION('',(0.,1.,0.));
#538=DIRECTION('',(0.,0.,1.));
#539=DIRECTION('',(0.,1.,0.));
#540=DIRECTION('',(-0.207911690817759,0.,0.978147600733806));
#541=DIRECTION('',(-0.978147600733806,0.,-0.207911690817759));
#542=DIRECTION('',(-0.207911690817759,0.,0.978147600733806));
#543=DIRECTION('',(0.,1.,0.));
#544=DIRECTION('',(0.,-1.,0.));
#545=DIRECTION('',(1.,0.,0.));
#546=DIRECTION('',(0.,1.,0.));
#547=DIRECTION('',(0.,0.,1.));
#548=DIRECTION('',(0.,1.,0.));
#549=DIRECTION('',(-1.,0.,0.));
#550=DIRECTION('',(0.,0.,-1.));
#551=DIRECTION('',(-1.,0.,0.));
#552=DIRECTION('',(0.,1.,0.));
#553=DIRECTION('',(0.,-1.,0.));
#554=DIRECTION('',(1.,0.,0.));
#555=DIRECTION('',(0.,1.,0.));
#556=DIRECTION('',(0.,0.,1.));
#557=DIRECTION('',(0.,1.,0.));
#558=DIRECTION('',(-0.20791169081776,0.,-0.978147600733805));
#559=DIRECTION('',(0.978147600733806,0.,-0.20791169081776));
#560=DIRECTION('',(-0.20791169081776,0.,-0.978147600733806));
#561=DIRECTION('',(0.,1.,0.));
#562=DIRECTION('',(0.,-1.,0.));
#563=DIRECTION('',(1.,0.,0.));
#564=DIRECTION('',(0.,1.,0.));
#565=DIRECTION('',(0.,0.,1.));
#566=DIRECTION('',(0.,1.,0.));
#567=DIRECTION('',(0.,0.,-1.));
#568=DIRECTION('',(1.,0.,0.));
#569=DIRECTION('',(0.,0.,-1.));
#570=DIRECTION('',(0.,1.,0.));
#571=DIRECTION('',(0.,1.,0.));
#572=DIRECTION('',(1.,0.,0.));
#573=DIRECTION('',(0.,1.,0.));
#574=DIRECTION('',(0.,0.,1.));
#575=DIRECTION('',(0.,-1.,0.));
#576=DIRECTION('',(1.,0.,0.));
#577=DIRECTION('',(0.,1.,0.));
#578=DIRECTION('',(0.,0.,1.));
#579=DIRECTION('',(0.,-1.,0.));
#580=DIRECTION('',(0.,0.,-1.));
#581=DIRECTION('',(0.,1.,0.));
#582=DIRECTION('',(0.,0.,1.));
#583=DIRECTION('',(0.,-1.,0.));
#584=DIRECTION('',(0.,0.,-1.));
#585=DIRECTION('',(0.,1.,0.));
#586=DIRECTION('',(0.,0.,1.));
#587=DIRECTION('',(0.,-1.,0.));
#588=DIRECTION('',(0.,0.,-1.));
#589=CARTESIAN_POINT('',(0.,0.,0.));
#590=CARTESIAN_POINT('',(-33.7509337708773,0.,42.4));
#591=CARTESIAN_POINT('',(-33.7509337708773,0.,42.9));
#592=CARTESIAN_POINT('',(-34.2400075712442,0.,42.5039558454089));
#593=CARTESIAN_POINT('',(33.7509337708774,0.,42.9));
#594=CARTESIAN_POINT('',(33.7509337708774,0.,42.9));
#595=CARTESIAN_POINT('',(33.7509337708774,0.,42.4));
#596=CARTESIAN_POINT('',(34.2400075712443,0.,42.5039558454089));
#597=CARTESIAN_POINT('',(35.739073800367,0.,35.4514037277758));
#598=CARTESIAN_POINT('',(35.7390738003669,0.,35.4514037277762));
#599=CARTESIAN_POINT('',(35.25,0.,35.3474478823673));
#600=CARTESIAN_POINT('',(35.75,0.,35.3474478823673));
#601=CARTESIAN_POINT('',(35.75,0.,24.4));
#602=CARTESIAN_POINT('',(35.75,0.,24.4));
#603=CARTESIAN_POINT('',(51.1574218989701,0.,15.0934780703457));
#604=CARTESIAN_POINT('',(35.75,0.,5.78695614069131));
#605=CARTESIAN_POINT('',(35.75,0.,2.));
#606=CARTESIAN_POINT('',(35.75,0.,2.2));
#607=CARTESIAN_POINT('',(33.75,0.,2.2));
#608=CARTESIAN_POINT('',(33.75,0.,0.2));
#609=CARTESIAN_POINT('',(-33.75,0.,0.2));
#610=CARTESIAN_POINT('',(-33.75,0.,0.2));
#611=CARTESIAN_POINT('',(-33.75,0.,2.2));
#612=CARTESIAN_POINT('',(-35.75,0.,2.2));
#613=CARTESIAN_POINT('',(-35.75,0.,8.28452790064502));
#614=CARTESIAN_POINT('',(-35.75,0.,8.28452790064502));
#615=CARTESIAN_POINT('',(-34.75,0.,8.28452790064502));
#616=CARTESIAN_POINT('',(-35.5739731950806,0.,8.85115668017234));
#617=CARTESIAN_POINT('',(-46.6976113286693,0.,16.5006452037909));
#618=CARTESIAN_POINT('',(-35.75,0.,24.4));
#619=CARTESIAN_POINT('',(-35.75,0.,35.347447882367));
#620=CARTESIAN_POINT('',(-35.75,0.,35.347447882367));
#621=CARTESIAN_POINT('',(-35.25,0.,35.347447882367));
#622=CARTESIAN_POINT('',(-35.7390738003669,0.,35.4514037277759));
#623=CARTESIAN_POINT('',(-34.2400075712442,0.,42.5039558454089));
#624=CARTESIAN_POINT('',(-33.75,0.,2.));
#625=CARTESIAN_POINT('',(-35.75,-2.2,2.2));
#626=CARTESIAN_POINT('',(-35.75,-2.2,2.2));
#627=CARTESIAN_POINT('',(-35.75,-2.2,8.28452790064502));
#628=CARTESIAN_POINT('',(-35.75,-2.2,8.28452790064502));
#629=CARTESIAN_POINT('',(-35.75,-2.2,8.28452790064502));
#630=CARTESIAN_POINT('',(-35.75,-2.2,8.28452790064502));
#631=CARTESIAN_POINT('',(33.75,-2.2,0.2));
#632=CARTESIAN_POINT('',(33.75,-2.2,0.2));
#633=CARTESIAN_POINT('',(-33.75,-2.2,0.2));
#634=CARTESIAN_POINT('',(-33.75,-2.2,0.2));
#635=CARTESIAN_POINT('',(-33.75,-2.2,0.2));
#636=CARTESIAN_POINT('',(-33.75,-2.2,0.2));
#637=CARTESIAN_POINT('',(35.75,-2.2,2.));
#638=CARTESIAN_POINT('',(35.75,-2.2,2.2));
#639=CARTESIAN_POINT('',(35.75,-2.2,5.78695614069131));
#640=CARTESIAN_POINT('',(35.75,-2.2,2.2));
#641=CARTESIAN_POINT('',(35.75,-2.2,5.78695614069131));
#642=CARTESIAN_POINT('',(35.75,-2.2,2.));
#643=CARTESIAN_POINT('',(35.75,-2.2,24.4));
#644=CARTESIAN_POINT('',(35.75,-2.2,24.4));
#645=CARTESIAN_POINT('',(51.1574218989701,-2.2,15.0934780703457));
#646=CARTESIAN_POINT('',(51.1574218989701,-2.2,15.0934780703457));
#647=CARTESIAN_POINT('',(35.75,-2.2,35.3474478823673));
#648=CARTESIAN_POINT('',(35.75,-2.2,35.3474478823673));
#649=CARTESIAN_POINT('',(35.75,-2.2,24.4));
#650=CARTESIAN_POINT('',(35.75,-2.2,24.4));
#651=CARTESIAN_POINT('',(35.7390738003669,-2.2,35.4514037277762));
#652=CARTESIAN_POINT('',(35.7390738003669,-2.2,35.4514037277762));
#653=CARTESIAN_POINT('',(35.25,-2.2,35.3474478823673));
#654=CARTESIAN_POINT('',(35.25,-2.2,35.3474478823673));
#655=CARTESIAN_POINT('',(34.2400075712443,-2.2,42.5039558454089));
#656=CARTESIAN_POINT('',(34.2400075712443,-2.2,42.5039558454089));
#657=CARTESIAN_POINT('',(35.739073800367,-2.2,35.4514037277758));
#658=CARTESIAN_POINT('',(35.739073800367,-2.2,35.4514037277758));
#659=CARTESIAN_POINT('',(33.7509337708774,-2.2,42.9));
#660=CARTESIAN_POINT('',(33.7509337708774,-2.2,42.9));
#661=CARTESIAN_POINT('',(33.7509337708774,-2.2,42.4));
#662=CARTESIAN_POINT('',(33.7509337708774,-2.2,42.4));
#663=CARTESIAN_POINT('',(-33.7509337708773,-2.2,42.9));
#664=CARTESIAN_POINT('',(-33.7509337708773,-2.2,42.9));
#665=CARTESIAN_POINT('',(33.7509337708774,-2.2,42.9));
#666=CARTESIAN_POINT('',(33.7509337708774,-2.2,42.9));
#667=CARTESIAN_POINT('',(-34.2400075712442,-2.2,42.5039558454089));
#668=CARTESIAN_POINT('',(-34.2400075712442,-2.2,42.5039558454089));
#669=CARTESIAN_POINT('',(-33.7509337708773,-2.2,42.4));
#670=CARTESIAN_POINT('',(-33.7509337708773,-2.2,42.4));
#671=CARTESIAN_POINT('',(-35.7390738003669,-2.2,35.4514037277759));
#672=CARTESIAN_POINT('',(-35.7390738003669,-2.2,35.4514037277759));
#673=CARTESIAN_POINT('',(-34.2400075712442,-2.2,42.5039558454089));
#674=CARTESIAN_POINT('',(-34.2400075712442,-2.2,42.5039558454089));
#675=CARTESIAN_POINT('',(-35.75,-2.2,35.347447882367));
#676=CARTESIAN_POINT('',(-35.75,-2.2,35.347447882367));
#677=CARTESIAN_POINT('',(-35.25,-2.2,35.347447882367));
#678=CARTESIAN_POINT('',(-35.25,-2.2,35.347447882367));
#679=CARTESIAN_POINT('',(-35.75,-2.2,24.4));
#680=CARTESIAN_POINT('',(-35.75,-2.2,24.4));
#681=CARTESIAN_POINT('',(-35.75,-2.2,35.347447882367));
#682=CARTESIAN_POINT('',(-35.75,-2.2,35.347447882367));
#683=CARTESIAN_POINT('',(-35.5739731950806,-2.2,8.85115668017234));
#684=CARTESIAN_POINT('',(-35.5739731950806,-2.2,8.85115668017234));
#685=CARTESIAN_POINT('',(-46.6976113286693,-2.2,16.5006452037909));
#686=CARTESIAN_POINT('',(-46.6976113286693,-2.2,16.5006452037909));
#687=CARTESIAN_POINT('',(-34.75,-2.2,8.28452790064502));
#688=CARTESIAN_POINT('',(-34.75,-2.2,8.28452790064502));
#689=CARTESIAN_POINT('',(33.75,-2.2,2.2));
#690=CARTESIAN_POINT('',(33.75,-2.2,2.2));
#691=CARTESIAN_POINT('',(-33.75,-2.2,2.2));
#692=CARTESIAN_POINT('',(-33.75,-2.2,2.2));
#693=CARTESIAN_POINT('',(-33.75,-2.2,2.));
#694=(
GEOMETRIC_REPRESENTATION_CONTEXT(3)
GLOBAL_UNCERTAINTY_ASSIGNED_CONTEXT((#695))
GLOBAL_UNIT_ASSIGNED_CONTEXT((#701,#697,#696))
REPRESENTATION_CONTEXT('TC10-2-EA','TOP_LEVEL_ASSEMBLY_PART')
);
#695=UNCERTAINTY_MEASURE_WITH_UNIT(LENGTH_MEASURE(2.E-5),#701,
'DISTANCE_ACCURACY_VALUE','Maximum Tolerance applied to model');
#696=(
NAMED_UNIT(*)
SI_UNIT($,.STERADIAN.)
SOLID_ANGLE_UNIT()
);
#697=(
CONVERSION_BASED_UNIT('DEGREE',#699)
NAMED_UNIT(#698)
PLANE_ANGLE_UNIT()
);
#698=DIMENSIONAL_EXPONENTS(0.,0.,0.,0.,0.,0.,0.);
#699=PLANE_ANGLE_MEASURE_WITH_UNIT(PLANE_ANGLE_MEASURE(0.0174532925),#700);
#700=(
NAMED_UNIT(*)
PLANE_ANGLE_UNIT()
SI_UNIT($,.RADIAN.)
);
#701=(
LENGTH_UNIT()
NAMED_UNIT(*)
SI_UNIT(.MILLI.,.METRE.)
);
ENDSEC;
END-ISO-10303-21;
